Bonne idée


Pas de difficulté dans ce morceau excepté l'intro, dont le "petit riff final" n'est pas évident a exécuter au début, à cause de la vitesse de morceau.

On peut entendre deux guitares qui jouent en même temps sur le disque, par exemple au pont la 2nde les accords en haut du manche et non en barre, mais le morceau se joue très bien tout seul.

Attention : Il faut utiliser un capodastre ˆ la 1ère case pour être dans la tonalité du disque. En live par contre, il ne l'utilise pas.

s : Glisse entre les 2 notes adjacentes

Intro                                     ____  C'est ca le "petit
                                         /      riff final"
   C         G             D    D4  G   V
|--------8---7----7--7-7---5-5--5---3-----------3------|
|--------8---8----8--8-8---7-7--8---3-------3-5---5-3--|
|--4s9-------7----7--7-7---7-7--7---4---3s4------------|
|------------------------------------------------------|
|------------------------------------------------------|
|------------------------------------------------------|

   C         G             D     G
|--------8---7----7--7-7---5-5---3--3-3-3-3--3-3-3-3--|
|--------8---8----8--8-8---7-7---3--5-5-5-5--5-5-5-5--|
|--4s9-------7----7--7-7---7-7---4--4-4-4-4--4-4-4-4--|
|-----------------------------------------------------|
|-----------------------------------------------------|
|-----------------------------------------------------|

   C         G             D   D4  G
|--------8---7----7--7-7---5---5---3-----------3------|
|--------8---8----8--8-8---7---8---3-------3-5---5-3--|
|--4s9-------7----7--7-7---7---7---4---3s4------------|
|-----------------------------------------------------|
|-----------------------------------------------------|
|-----------------------------------------------------|

   C         G        D   G4
|--------8---7--7-7---5---3--3-3-3-3--3-3-3-3---3--3-3-3-3--3-3-3-3--|
|--------8---8--8-8---7---3--3-3-3-3--3-3-3-3---3--3-3-3-3--3-3-3-3--|
|--4s9-------7--7-7---7---5--5-5-5-5--5-5-5-5---5--5-5-5-5--5-5-5-5--|
|--------------------------------------------------------------------|
|--------------------------------------------------------------------|
|--------------------------------------------------------------------|

Couplet 1 :

   C           G             D   D4    Em7
|--3---3-3-----3---3--3-3----2---3-3---3---3--3-3-3-3--|
|--1---1-1-----3---3--3-3----3---3-3---3---3--3-3-3-3--|
|--0---0-0-----0---0--0-0----2---2-2---0---0--0-0-0-0--|
|--2-------------------------0---------2---------------|
|--3-----------2-----------------------2---------------|
|--------------3---------------------------------------|
   Un debut de Janvier...    bien su......    mmmmm

   C           G             D   D4    Em7
|--3---3-3-----3---3--3-3----2---3-3---3---3--3-3-3-3--|
|--1---1-1-----3---3--3-3----3---3-3---3---3--3-3-3-3--|
|--0---0-0-----0---0--0-0----2---2-2---0---0--0-0-0-0--|
|--2-------------------------0---------2---------------|
|--3-----------2-----------------------2---------------|
|--------------3---------------------------------------|
    Reste de fete ou bien... tres appuyes

   C           G             D   D4    Em7
|--3---3-3-----3---3--3-3----2---3-3---3---3--3-3-3-3--|
|--1---1-1-----3---3--3-3----3---3-3---3---3--3-3-3-3--|
|--0---0-0-----0---0--0-0----2---2-2---0---0--0-0-0-0--|
|--2-------------------------0---------2---------------|
|--3-----------2-----------------------2---------------|
|--------------3---------------------------------------|
   De Ruth...  Moishe lequel a eu l'idee      Qu'importe si

   C           G             D   D4    Em7
|--3---3-3-----3---3--3-3----2---3-3---3---3--3-3-3-3--|
|--1---1-1-----3---3--3-3----3---3-3---3---3--3-3-3-3--|
|--0---0-0-----0---0--0-0----2---2-2---0---0--0-0-0-0--|
|--2-------------------------0---------2---------------|
|--3-----------2-----------------------2---------------|
|--------------3---------------------------------------|
 J'ai gagne la course  et parmi des milliers

Couplet 2 idem que Couplet 1

Refrain 1 idem que l'Intro

Couplets 3+4 idem Couplet 1

Refrain 2 :

   C         G             D    D4  G
|--------8---7----7--7-7---5-5--5---3-----------3------|
|--------8---8----8--8-8---7-7--8---3-------3-5---5-3--|
|--4s9-------7----7--7-7---7-7--7---4---3s4------------|
|------------------------------------------------------|
|------------------------------------------------------|
|------------------------------------------------------|

   C         G             D     G
|--------8---7----7--7-7---5-5---3--3-3-3-3--3-3-3-3--|
|--------8---8----8--8-8---7-7---3--5-5-5-5--5-5-5-5--|
|--4s9-------7----7--7-7---7-7---4--4-4-4-4--4-4-4-4--|
|-----------------------------------------------------|
|-----------------------------------------------------|
|-----------------------------------------------------|

   C         G             D   D4  G
|--------8---7----7--7-7---5---5---3-----------3------|
|--------8---8----8--8-8---7---8---3-------3-5---5-3--|
|--4s9-------7----7--7-7---7---7---4---3s4------------|
|-----------------------------------------------------|
|-----------------------------------------------------|
|-----------------------------------------------------|

   C         G     D
|--------8---7-7---5--5-5-5--|
|--------8---8-8---7--7-7-7--|
|--4s9-------7-7---7--7-7-7--|
|----------------------------|
|----------------------------|
|----------------------------|

Pont :

   A           D             E           A
|--5---5-5-5---5---5-5-5-5---7---7-7-7---5---5-5-5-5--|
|--5---5-5-5---7---7-7-7-7---9---9-9-9---5---5-5-5-5--|
|--6---6-6-6---7---7-7-7-7---9---9-9-9---6---6-6-6-6--|
|--7-----------7-------------9-----------7------------|
|--7-----------5-------------7-----------7------------|
|--5-------------------------------------5------------|
Et puis y'a... debarque... ouvrant...  rideaux. Et des flots

   D           A             D           E             
|--5---5-5-5---5---5-5-5-5---5---5-5-5---7---7-7-7-7--|
|--7---7-7-7---5---5-5-5-5---7---7-7-7---9---9-9-9-9--|
|--7---7-7-7---6---6-6-6-6---7---7-7-7---9---9-9-9-9--|
|--7-----------7-------------7-----------9------------|
|--5-----------7-------------5-----------7------------|
|--------------5--------------------------------------|
   de couleurs eclatent...   semble...   haut.     Et
 
   A           D             E           F#m
|--5---5-5-5---5---5-5-5-5---7---7-7-7---9---9--9--9--9---|
|--5---5-5-5---7---7-7-7-7---9---9-9-9---10--10-10-10-10--|
|--6---6-6-6---7---7-7-7-7---9---9-9-9---11--11-11-11-11--|
|--7-----------7-------------9-----------11---------------|
|--7-----------5-------------7-----------9----------------|
|--5------------------------------------------------------|
   rien...  ne change   mais tout est different.    Comme

   D           A             E             F#m
|--5---5-5-5---5---5-5-5-5---7---7-7-7---9---9--9--9--9---|
|--7---7-7-7---5---5-5-5-5---9---9-9-9---10--10-10-10-10--|
|--7---7-7-7---6---6-6-6-6---9---9-9-9---11--11-11-11-11--|
|--7-----------7-------------9-----------11---------------|
|--5-----------7-------------7-----------9----------------|
|--------------5------------------------------------------|
   ces...      mangent... ou en   les partageant

   D          A             E    E4  A
|--------10---9----9--9-9---7-7--7---5-----------5------|
|--------10---10---10-1010--9-9--10--5-------5-7---7-5--|
|--6s11-------9----9--9-9---9-9--9---6---5s6------------|
|-------------------------------------------------------|
|-------------------------------------------------------|
|-------------------------------------------------------|

   D          A       E   C        G       D   C    
|--------10---9----9--7--------8---7----7--5---3~~--|
|--------10---10---10-9--------8---8----8--7---5~~--|
|--6s11-------9----9--9---4s9------7----7--7---5~~--|
|---------------------------------------------------|
|---------------------------------------------------|
|---------------------------------------------------|

Couplet 5 idem que Couplet 1

Fin :

   C         G             D    D4  G
|--------8---7----7--7-7---5-5--5---3-----------3------|
|--------8---8----8--8-8---7-7--8---3-------3-5---5-3--|
|--4s9-------7----7--7-7---7-7--7---4---3s4------------|
|------------------------------------------------------|
|------------------------------------------------------|
|------------------------------------------------------|

   C         G             D     G
|--------8---7----7--7-7---5-5---3--3-3-3-3--3-3-3-3--|
|--------8---8----8--8-8---7-7---5--5-5-5-5--5-5-5-5--|
|--4s9-------7----7--7-7---7-7---4--4-4-4-4--4-4-4-4--|
|-----------------------------------------------------|
|-----------------------------------------------------|
|-----------------------------------------------------|

   C         G             D   G4
|--------8---7----7--7-7---5-----3~-------3~------------3-------|
|--------8---8----8--8-8---7----3~------3~-----------------3----|
|--4s9-------7----7--7-7---7---5~-----5~--------------------5---|
|-----------------------------------5~-----------------------5--|
|---------------------------------------------------------------|
|---------------------------------------------------------------|
                                         Bonne idee