Et l’on n’y peut rien


Capo 1e case

Retranscription de la melodie des flutes en tablature :

   G         C           D         G
|-----------------------------------------------|
|--------0---1~~-0~~----------------------------|
|--0---0---0---------2-0-2---0-2---4~--2~--0----|
|----0---------------------0-----0-----------4--|
|-----------------------------------------------|
|-----------------------------------------------|

   Em        D            Em          D
|--------------------------------------------------|
|--------------------------------------------------|
|--0~---------------0-2-0-4-0-0-0-2-4-2-------0-2--|
|------2-0---0~~--0---------------------0-0-4------|
|----------3---------------------------------------|
|--------------------------------------------------|

   G         C           D         G
|-----------------------------------------------|
|--------0---1~~-0~~----------------------------|
|--0---0---0---------2-0-2---0-2---4~--2~--0----|
|----0---------------------0-----0-----------4--|
|-----------------------------------------------|
|-----------------------------------------------|

   Em        D             C     D     G
|----------------------------------------------------|
|---------------------------------------------0-3----|
|--0~----------------0-2-4-2-------0-2-0~~--0-----0--|
|------2-0---0~~---0---------0-0-4-------------------|
|----------3-----------------------------------------|
|----------------------------------------------------|

    C        G            C        G
|--/3--2--0--------------/3--2--0---------------|
|------------3-----0-3-------------3-----0-3----|
|----------------0-----0---------------0-----0--|
|-----------------------------------------------|
|-----------------------------------------------|
|-----------------------------------------------|

    C        G             Em          D
|--/3--2--0-----------------------------------------|
|------------3---0-------0-1-0-------0-------0-3----|
|------------------0-0-2-------2-0-2---2~~-0-----0--|
|---------------------------------------------------|
|---------------------------------------------------|
|---------------------------------------------------|

    C        G            C        G
|--/3--2--0--------------/3--2--0---------------|
|------------3-----0-3-------------3-----0-3----|
|----------------0-----0---------------0-----0--|
|-----------------------------------------------|
|-----------------------------------------------|
|-----------------------------------------------|

    C        Em            C     D     G
|--/3--2--0---------------------------------|
|------------3---0-------0-1-0--------------|
|------------------0-0-2-------2---2---0~~--|
|--------------------------------0---4------|
|-------------------------------------------|
|-------------------------------------------|

Intro :

G - C - D - G
Em - D - Em - D
G - C - D - G
Em - D - C-D-G

C - G - C - G
C - G - Em - D
C - G - C - G
C - Em - C-D-G

G          C     D              G
  Comme un fil entre l'autre et l'un
Em    D         Em   D
  Invisible, il pose ses liens
G          C        D      G
  Dans les méandres des inconscients
Em      D         C   G
  Il se promène impunément

   C           G
Et tout un peu tremble
      C        G
Et le reste s'éteint
   C           G
Juste dans nos ventres
   Em         D
Un noeud, une faim

   C            G
Il fait roi l'esclave
        C          G
Et peut dammer les saints
     C          Em
L'honnête ou le sage
        C   D    G
Et l'on n'y peut rien

G - C - D - G
Em - D - Em - D
G - C - D - G
Em - D - C-D-G

G         C          D     G
  Et l'on résiste on bâtit des murs
Em       D         Em       D
  Des bonheurs, photos bien rangées
G      C         D          G
  Terroriste, il fend les armures,
Em      D             C D G
  Un instant tout est balayé

   C            G
Tu rampes et tu guettes
      C           G
Et tu mendies des mots
   C         G
Tu lis ses poètes
      Em    D
Aimes ses tableaux

      C             G        
Et tu cherches à la croiser
     C             G
T'as quinze ans soudain
     C         Em
Tout change de base
        C   D    G
Et l'on n'y peut rien

G - C - D - G
Em - D - D 

A        D          E           A
  Il s'invite quand on ne l'attend pas
F#m        E           F#m      E
  Quand on y croit, il s'enfuit déjà
A       D      E         A
  Frère qui un jour y goûta
F#m      E          D    A
  Jamais plus tu ne guériras

   D           A
Il nous laisse vide
        D        A
Et plus mort que vivant
      D       A
C'est lui qui décide
      F#m         E
On ne fait que semblant
     D           A
Lui, choisit ses tours
       D         A
Et ses va et ses vient
   D          F#m    
Ainsi fait l'amour
        D   E    A
Et l'on n'y peut rien

A - D - E - A
F#m - E - F#m - E
A - D - E - A
F#m - E - D-E-A

D - A - D - A
D - A - F#m - E
D - A - D - A
D - F#m - D-E-A

A - D - E - A
F#m - E - F#m - E
A - D - E - A
F#m - E - D-E-A