Il y a


Intro :

|----3-------3---------3-------3-----|
|--------3-------3---------3-------3-|
|------0-------0---------0-------0---|
|----------0-----------------0-------|
|------------------------------------|
|--3-----------------3---------------|

Couplet 1 :

  G                 G7M               Em7
|----3-------3---------3-------3---------3-------3------|
|--------3-------3---------3-------3---------3-------3--|
|------0-------0---------0-------0---------0-------0----|
|----------0-----------------0-----------------2--------|
|-------------------------------------------------------|
|--3-----------------2-----------------0----------------|
     Il  y   a              Du thym, de la bruyere

  Am7                G/B               C9               D4       D
|----3-------3---------3-------3---------3-------3--------3---------2-----|
|--------1-------1---------3-------3---------3-------3---------3--------3-|
|------2-------2---------0-------0---------0-------0---------2--------2---|
|----------2-----------------0-----------------2---------0--------0-------|
|--0-----------------2-----------------3----------------------------------|
|-------------------------------------------------------------------------|
     Et des bois de pin                Rien de bien malin           Il y

   Em                 Am                G/B
|-----0-------0---------0-------0---------3-------3-----|
|---------0-------0---------1-------1---------3-------3-|
|-------0-------0---------2-------2---------0-------0---|
|-----------2-----------------2-----------------0-------|
|---------------------0-----------------2---------------|
|--0----------------------------------------------------|
  a                    Des ruisseaux, des clairieres

   C9                G/B               D4      D
|----3-------3---------3-------3---------3-------2-----|
|--------2-------2---------3-------3---------3-------3-|
|------0-------0---------0-------0---------2-------2---|
|----------2-----------------0---------0-------0-------|
|--3-----------------2---------------------------------|
|------------------------------------------------------|
         Pas de quoi en faire          Un plat de ce coin

Couplet 2 : idem

G
Il y a
G7M                 Em7 
Des odeurs de menthe
Am7         G/B
Et des cheminees
C9            D4 D
Et des feux dedans
     Em
Il y a
Am                     G/B
Des jours et des nuits lentes
C9              G/B
Et l'histoire absente
D4 D
Banalement

Refrain 1:

   G       C
|----3-------------|
|--------3------1--|
|------0-------0---|
|----------0^2-----|
|------------------|
|--3---------------|

   G                 C9                D4      D
|----3-------3---------3-------3---------3-------2-----|
|--------3-------3---------3-------3---------3-------3-|
|------0-------0---------0-------0---------2-------2---|
|----------0-----------------2---------0-------0-------|
|--------------------3---------------------------------|
|--3---------------------------------------------------|
      Et loin de tout,      loin de moi

   G       C
|----3-------------|
|--------3------1--|
|------0-------0---|
|----------0^2-----|
|------------------|
|--3---------------|

   G                 C9                D4      D
|----3-------3---------3-------3---------3-------2-----|
|--------3-------3---------3-------3---------3-------3-|
|------0-------0---------0-------0---------2-------2---|
|----------0-----------------2---------0-------0-------|
|--------------------3---------------------------------|
|--3---------------------------------------------------|
                   C'est la que tu  te sens chez toi

   G       C         G       G7M
|----3-----------------3-------3-----|
|--------3-------1---------3-------3-|
|------0-------0---------0-------0---|
|----------0^2-----------------------|
|------------------------------------|
|--3-----------------3-------2-------|

   Em                D4        D         C                G/B
|----0-------0--------3----------2---------0-------0---------3-------3-----|
|--------0-------0---------3---------3---------1-------1---------3-------3-|
|------0-------0---------2---------2---------0-------0---------0-------0---|
|----------2---------0---------0-----------------2-----------------0-------|
|----------------------------------------3-----------------2---------------|
|--0-----------------------------------------------------------------------|
       De la que tu pars          Ou tu reviens chaque fois
   Am                G                 D4                D
|----0-------0---------3-------3---------3-------3---------2-------2-----|
|--------1-------1---------3-------3---------3-------3---------3-------3-|
|------2-------2---------0-------0---------2-------2---------2-------2---|
|----------2-----------------0---------0-------0---------0-------0-------|
|--0-----------------2---------------------------------------------------|
|------------------------------------------------------------------------|
       Et ou tout    finira

Couplet 3 + 4 : idem que Couplet 1 + 2

G
Il y a
G7M                     Em7
Des enfants, des grands-meres
Am7          G 
Une petite eglise
C9            D4 D
Et un grand cafe
Em
Il y a 
Am             G
Au fond du cimetiere
C9               G
Des joies, des miseres
D4     D
Et du temps passe

G
Il y a 
G7M         Em7
Une petite ecole
Am7             G
Et des bancs de bois
C9               D4  D
Tout comme autrefois
Em
Il y a 
Am             G
Des images qui collent
C9             G
Au bout de tes doigts
D4     D
Et ton coeur qui bat

Refrain 2 : idem que Refrain 1

G C
G            C9 D4 D        G   C G
Et loin de tout,    loin de moi
C9               D4 D         G   C G
C'est la que tu te  sens chez toi
Em           D4  D       C              G
De la que tu pars  ou tu reviens chaque fois
Am         G      D4 D
Et ou tout finira

Pont :

        C                 D4 D        Em                 G
Et plus la terre est aride,   et plus cet amour est grand
 C               G          C          D4 D
Comme un mineur a sa mine, un marin a son ocean
Em                G         C                G
Plus la nature est ingrate, avide de sueur et de boue
      Am              G                  C              D4 
Parce que l'on a tant besoin que l'on ait besoin de vous
D    C                  G             Am7                G
Elle porte les stigmates de leur peine    et de leur sang
  C9           G/B        G4   G             G C
Comme une mere prefere un peu son plus fragile enfant

Refrain 5:

G            C9 D4 D        G   C G
Et loin de tout,    loin de moi
C9               D4 D         G   C G
C'est la que tu te  sens chez toi
Em           D4  D       C              G
De la que tu pars  ou tu reviens chaque fois
Am         G      D4
Et ou tout finira