Je ne vous parlerai pas d’elle


Intro :

   G               D               C               D
|--------3-------3-------2-------2-------3-------3-------3-2-0-2-3--|
|------0-------0-------3-------3-------1-------1-------3------------|
|----0-------0-------2-------2-------0-------0-------2--------------|
|------------------0-------------------------------0----------------|
|----------------------------------3--------------------------------|
|--3----------------------------------------------------------------|

    G                          D
|--------------3-----------3--------------2----------2----------|
|-----------0-----------0-------------3-----------3-------------|
|--------0-----------0------------2------------2----------------|
|------------------------------0--------------------------------|
|---------------------------------------------------------------|
|---3-----------------------------------------------------------|
Je vous dirai ma vie dans son nu le plus bleme

      C                             D
|----------------3---------------------------3--2--0--2--3------|
|------------1------------1----0----------3---------------------|
|---------0------------0---------------2------------------------|
|-----------------------------------0---------------------------|
|-----3---------------------------------------------------------|
|---------------------------------------------------------------|
Dans les matins palis ou plus rien ne protege

    G                          D
|--------------3-----------3--------------2----------2----------|
|-----------0-----------0-------------3-----------3-------------|
|--------0-----------0------------2------------2----------------|
|------------------------------0--------------------------------|
|---------------------------------------------------------------|
|---3-----------------------------------------------------------|
Je vous dirai mes cris jusqu'aux plus imbeciles

    C                                D
|--------------3------------------------------3--2--0--2--3-----|
|----------1------------1----0-------------3--------------------|
|-------0------------0------------------2-----------------------|
|------------------------------------0--------------------------|
|---3-----------------------------------------------------------|
|---------------------------------------------------------------|
Je vous livrerai tout jusqu'au bout de mes cils

      C                          D
|----------------0-----------0------------3--2------------------|
|------------1------------1------------3--------3--1------------|
|---------0------------0------------2---------------------------|
|--------------------------------0------------------------------|
|-----3---------------------------------------------------------|
|---------------------------------------------------------------|
Tous mes gestes promis, tout ce que je pense

    G                               C
|----------------3------------3------------0--------------------|
|---0---------0-----------0--------------1----------------------|
|-------0---------------0--------------0---------0--------------|
|---------------------------------------------------------------|
|-----------------------------------3---------3-----2-----------|
|---3-----------------------------------------------------------|
De mes coups de colere a mes coups de romance

    Am7                          G
|---------------0-----------0--------------3--------------------|
|------------1-----------1--------------0-----------------------|
|---------0-----------0--------------0--------------------------|
|---------------------------------------------------------------|
|---0-----------------------------------------------------------|
|--------------------------------3------------------------------|
En toute complaisance, en toute impudeur

     C                        D
|-------------3---------0--------------3--2--0--2--3------------|
|----------1---------1--------------3---------------------------|
|-------0---------0--------------2------------------------------|
|-----------------------------0---------------------------------|
|----3----------------------------------------------------------|
|---------------------------------------------------------------|
Compte-rendu fidele de toute mes heures

    G                                 D
|--------------3-----------3---------------------2----------2---|
|-----------0-----------0--------------------3-----------3------|
|--------0-----------0-------------------2------------2---------|
|-------------------------------------0-------------------------|
|---------------------------------------------------------------|
|---3-----------------------------------------------------------|
J'avouerai tous les trucs interdits, les methodes

    C                             D
|--------------3---------------------------3--2--0--2--3--------|
|----------1------------1----0----------3-----------------------|
|-------0------------0---------------2--------------------------|
|---------------------------------0-----------------------------|
|---3-----------------------------------------------------------|
|---------------------------------------------------------------|
Je vous dirai les cle, vous livrerai les codes

     G                       D
|---------------3-----------3-----------2----------2------------|
|------------0-----------0----------3-----------3---------------|
|---------0-----------0---------2------------2------------------|
|----------------------------0----------------------------------|
|---------------------------------------------------------------|
|----3----------------------------------------------------------|
Les secrets inconnus a lire entre les lignes

     C                                 D
|---------------3-------------------------------3--2--0--2--3---|
|-----------1------------1----0--------------3------------------|
|--------0------------0-------------------2---------------------|
|--------------------------------------0------------------------|
|----3----------------------------------------------------------|
|---------------------------------------------------------------|
Les talismans perdus, les chiffres et les signes

     C                     D
|---------------0--------0----------3--2------------------------|
|-----------1---------1----------3--------3--1------------------|
|--------0---------0----------2---------------------------------|
|--------------------------0------------------------------------|
|----3----------------------------------------------------------|
|---------------------------------------------------------------|
Mes arrieres-pensees avec inconscience

    G                               C
|----------------3------------3------------0--------------------|
|---0---------0-----------0--------------1----------------------|
|-------0---------------0--------------0---------0--------------|
|---------------------------------------------------------------|
|-----------------------------------3---------3-----2-----------|
|---3-----------------------------------------------------------|
Mes gouts et mes degouts et tous mes coups de chance

    Am7                      G
|---------------0----------0-----------3------------------------|
|------------1----------1-----------0---------------------------|
|---------0----------0-----------0------------------------------|
|---------------------------------------------------------------|
|---0-----------------------------------------------------------|
|----------------------------3----------------------------------|
Meme sans interet, meme un peu faciles

     C                             Dsus4          D
|-------------3---------0-------------------3--------------2----|
|----------1---------1-------------------3--------------3-------|
|-------0---------0-------------------2--------------2----------|
|----------------------------------0--------------0-------------|
|----3----------------------------------------------------------|
|---------------------------------------------------------------|
Mes fantasmes enterres, mes idees les plus viles

         G          Dsus4           Em
|----------------3-------------2-------------0------------------|
|-------------0-------------3-------------0-----0-----0---------|
|----------0-------------2-------------0-----------0------------|
|---------------------------------------------------------------|
|---------------------------------------------------------------|
|--------3----------2---------------0---------------------------|
Mais je ne vous parlerai pas d'elle

   Em            Bm              C
|-----------0---------------2-------------0-----------------------|
|--------0---------------3-------------1-----1-----1--------------|
|-----0---------------4-------------0-----------0-----------------|
|-----------------------------------------------------------------|
|----------------2---------------3--------------------------------|
|--0--------------------------------------------------------------|
Je ne vous parlerai pas d'elle

         Am                      G
|-----------------0-----------------------3---------------------|
|--------------1-----1-----1-----------0-----0-----0------------|
|-----------2-----------2-----------0-----------0---------------|
|---------------------------------------------------------------|
|--------0-----------------------2------------------------------|
|---------------------------------------------------------------|
Elle est a cote de moi quand je me reveille

        Cadd9                    D
|----------------3------------------------3--2--0--2--3---------|
|-------------3-----3-----3------------3------------------------|
|----------0-----------0------------2---------------------------|
|--------------------------------0------------------------------|
|-------3-------------------------------------------------------|
|---------------------------------------------------------------|
Elle a surement un contrat avec mon sommeil

      G         Dsus4         Em
|--------------3------------2-----------0-----------------------|
|-----------0------------3-----------0-----0-----0--------------|
|--------0------------2-----------0-----------0-----------------|
|---------------------------------------------------------------|
|---------------------------------------------------------------|
|------3---------2-------------0--------------------------------|
Je ne vous parlerai pas d'elle

   Em                Bm               C
|-----------0-------------------2--------------0------------------|
|--------0-------------------3--------------1-----1-----1---------|
|-----0-------------------4--------------0-----------0------------|
|-----------------------------------------------------------------|
|--------------------2----------------3---------------------------|
|--0--------------------------------------------------------------|
Elle est mon sol, elle est mon ciel

         Am                      G
|-----------------0-----------------------3---------------------|
|--------------1-----1-----1-----------0-----0-----0------------|
|-----------2-----------2-----------0-----------0---------------|
|---------------------------------------------------------------|
|--------0-----------------------2------------------------------|
|---------------------------------------------------------------|
Elle est la, meme ou mes pas ne me guident pas

          Cadd9                        D
|------------------3----------------------------3--2--0--2--3---|
|---------------3-----3-----3----------------3------------------|
|------------0-----------0----------------2---------------------|
|--------------------------------------0------------------------|
|---------3-----------------------------------------------------|
|---------------------------------------------------------------|
Et quand je suis pas la, elle met mes pyjamas

          G                              D
|-------------------3---------------3-------------2----------2--|
|----------------0-------------0---------------3----------3-----|
|-------------0------------0----------------2----------2--------|
|----------------------------------------0----------------------|
|---------------------------------------------------------------|
|---------3-----------------------------------------------------|
Elle est plus que ma vie, elle est bien mieux que moi

          Em                           Eb
|-------------------0----------0--------------------------------|
|----------------0----------0----------4------------------------|
|------------0-----------0-------------3------------------------|
|--------------------------------------5------------------------|
|--------------------------------------6------------------------|
|---------0-----------------------------------------------------|
Elle est ce qui me reste quand j'fais plus le poids

   Am7                         Dsus4
|--------------0---------------3--------------------------------|
|-----------1-----------1------3--------------------------------|
|------0-------------0---------2--------------------------------|
|------------------------------0--------------------------------|
|--0------------------------------------------------------------|
|---------------------------------------------------------------|
Je ne vous parlerai pas d'elle

Final :

         G                      D
Elle est a cote de moi quand je me reveille

      Am7                       C          D
Elle a surement un contrat avec mon sommeil

         G                      D
Elle est la, meme ou mes pas ne me guident pas

        Am7                           C      D
Et quand je suis pas la, elle met mes pyjamas

         G                         D
Elle est plus que ma vie, elle est bien mieux que moi

        Am7                           C            D
Elle est ce qui me reste quand j'fais plus le poids