Je voudrais vous revoir


Il faut utiliser un  Capo a la 3eme case.

Intro :

   G               C               Em              D4      D
|-------------------------------------------------------------------|
|--------0---------------3-----1-0-----------0-----------3----------|
|------0-------0-------0-------------------------------0---------0--|
|----0-----------4---2-------2---------2-4^5---4-5---0-------0-4----|
|------------------3-----------------2-------------5----------------|
|--3---------3---------------------0--------------------------------|

Couplet 1,2,3 :

   G               C               Em              D4      D
|-------------------------------------------------------------------|
|--------0---------------3-----1-0-----------0-----------3----------|
|------0-------0-------0-------------------------------0---------0--|
|----0-----------4---2-------2---------2-4^5---4-5---0-------0-4----|
|------------------3-----------------2-------------5----------------|
|--3---------3---------------------0--------------------------------|
       Cette lettre....
       Nous vivions du...
       L'âge est un dernier...

   G               C               Em              D4      D
|-------------------------------------------------------------------|
|--------0---------------3-----1-0-----------0-----------3----------|
|------0-------0-------0-------------------------------0---------0--|
|----0-----------4---2-------2---------2-4^5---4-5---0-------0-4----|
|------------------3-----------------2-------------5----------------|
|--3---------3---------------------0--------------------------------|
       Quelques braises...
       Nous avions l'orgueil...
       Il ne faut prendre...

   C               Em              C               Em
|-------------------------------------------------------------------|
|--------1-------------------0-----------1-------------------0------|
|------0-------0-----------------------0-------0--------------------|
|----2-------2---------2-4^5---4-5---2-------2---------2-4^5---4-5--|
|--3-----------------2-------------3-----------------2--------------|
|------------------0-------------------------------0----------------|
         Vous en souvenez-vous ?...
         Tout nous semblait...
         Et se dire merci...

   C               G/B             D               Em
|-------------------------------------------------------------------|
|--------1---------------3---------------3-------------------0------|
|------0-------0-------0-------0-------0---------0------------------|
|----2-------2-------0-------0-------0-------0-4-------2-4^5---2-0--|
|--3---------------2---------------5-----------------2--------------|
|--------------------------------------------------0----------------|
         Nos raisons renoncent....
         Les jolies danses sont...
         Il est certaines...

   C               Em              C               Em
|-------------------------------------------------------------------|
|--------1-------------------0-----------1-------------------0------|
|------0-------0-----------------------0-------0--------------------|
|----2-------2---------2-4^5---4-5---2-------2---------2-4^5---4-5--|
|--3-----------------2-------------3-----------------2--------------|
|------------------0-------------------------------0----------------|
         Tendres adolescences...
         Le temps sur...
         Et vos gestes...

   C               G/B             D
|-------------------------------------------------------------------|
|--------1---------------3---------------3---------------3----------|
|------0-------0-------0-------0-------0-------0-------0---------0--|
|----2-------2-------0-------0-------0-------0-------0-------0-4----|
|--3---------------2---------------5---------------5----------------|
|-------------------------------------------------------------------|
         Tombe mon soir....
         Je voudrais vous revoir...
         Ce doux miroir où...

Pont :

   Am              Em              G               D
|-------------------------------------------------------------------|
|--------1-------------------0-----------0---------------3----------|
|------2-------2-----------------------0-------0-------0---------0--|
|----2-------2---2-----2-4^5---------0-------0---0---0-------0-4----|
|--0-----------------2-----------------------------5----------------|
|------------------0-----------0-2-3--------------------------------|
       Sûr il y aurait...

   Am              Em              C               G/B
|-------------------------------------------------------------------|
|--------1-------------------0-----------1---------------3----------|
|------2-------2-----------------------0-------0-------0-------0----|
|----2-------2---2-----2-4^5---2-0---2-------2---2---0-------0---0--|
|--0-----------------2-------------3---------------2----------------|
|------------------0------------------------------------------------|
       Qui sont vos rois...

   C               G/B             C               G/B
|-------------------------------------------------------------------|
|--------3---------------3---------------1---------------3----------|
|------0-------0-------0-------0-------0-------0-------0-------0----|
|----2-------2---2---0-------0---0---2-------2---2---0-------0---0--|
|--3---------------2---------------3---------------2----------------|
|-------------------------------------------------------------------|
   Même si c'est dérisoire...                          Avons-nous bien

   Em              D               C               G/B
|-------------------------------------------------------------------|
|------------0-----------3---------------3---------------3----------|
|----------------------0---------0-----0-------0-------0-------0----|
|------2-4^5---4-5---0-------0-4-----2-------2---2---0-------0---0--|
|----2-------------5---------------3---------------2----------------|
|--0----------------------------------------------------------------|
   vécu         la même histoire

   D
|-------------------|
|--------3----------|
|------0---------0--|
|----0-------0-4----|
|--5----------------|
|-------------------|

Final :

   G               C               Em              D
|-------------------------------------------------------------------|
|----3-----------3-5-3---------------3------------------------------|
|--4-----------4-----------0-2-----4-------4-0-----2-----4-2--------|
|--------------------------------------------------0----------------|
|------------------3------------------------------------------------|
|--3-------------------------------0--------------------------------|

Intro :
G - C - Em - D4 D

G                   C
  Cette lettre peut vous surprendre
          Em             D4  D
Mais sait-on ? peut-être pas
G                      C
  Quelques braises échappées des cendres
      Em           D4   D
D'un amour si loin déjà

C         Em
  Vous en souvenez-vous?
C       Em
  Nous étions fous de nous
C        G               D              Em
  Nos raisons renoncent, mais pas nos mémoires
C         Em
  Tendres adolescences,
C           Em
  J'y pense et j'y repense
C          G           D
  Tombe mon soir et je voudrais vous revoir

G                        C
  Nous vivions du temps, de son air
    Em                    D4  D
Arrogants comme sont les amants
G                       C
  Nous avions l'orgueil ordinaire
    Em                   D4  D
Du "nous deux c'est différent"

C           Em
  Tout nous semblait normal,
C          Em
  Nos vies seraient un bal
C            G                  D                 Em
  Les jolies danses sont rares, on l'apprend plus tard
C          Em
  Le temps sur nos visages
C          Em
  A soumis tous les orages
C             G           D
  Je voudrais vous revoir et pas par hasard

Am                Em                    G           D
  Sûr il y aurait des fantômes et des décors à réveiller
Am                   Em
  Qui sont vos rois, vos royaumes ?
     C          G
Mais je ne veux que savoir
C             G/B        C
Même si c'est dérisoire, juste savoir
G/B                  Em      D
     Avons-nous bien vécu la même histoire ?

C - G - D

G                      C
  L'âge est un dernier long voyage
           Em                D4  D
Un quai de gare et l'on s'en va
G                       C
  Il ne faut prendre en ses bagages
       Em               D4  D
Que ce qui vraiment compta

C            Em
  Et se dire merci
C        Em
  De ces perles de vie
C           G                 D             Em
  Il est certaines blessures, au goût de victoire
C        Em
  Et vos gestes, y reboire
C        Em
  Tes parfums, ton regard
C           G          D
  Ce doux miroir où je voudrais nous revoir

Final :

G - C - Em - D4 D
G - C - Em - D4 D