Nos mains


!! Attention il faut mettre un Capodastre a la 4e case !!
Le nom des accords tiennent compte du capo

Intro :
  E            A      B      E        A          B
|---------------------------------------------------|
|---------------------------------------------------|
|-----------1--1^2--1-----------1--2--2^4--2--1-----|
|--2-----2-------------4~~---2-------------------4--|
|-----2---------------------------------------------|
|---------------------------------------------------|

   C#       B         E           A         C#        B        A
|-----------------------------------------------------------------------|
|--------------------------------------------------------------------0--|
|---------------------1---2--2^4--2---1------------1--------------2-----|
|--2-----2--4------4---------------------4--2---------4--2--1--2--------|
|-----2---------2-------------------------------4-----------------------|
|-----------------------------------------------------------------------|

   E           A      B     E        A       B
|------------------------------------------------|
|------------------------------------------------|
|-----------1--2--1------------1--2--4--2--1-----|
|--2-----2------------4~~---2-----------------4--|
|-----2------------------------------------------|
|------------------------------------------------|

Couplet 1 :

   E               E4          B/E                         B7 
|----------------------------------------------------------------|
|----------------------------------------------------------------|
|--1---------------2-----------4---------------------------------|
|--2---------------2-----------4---------------------------1--2--|
|--2---2---2---2---2---2---2---2---2---2---2---2---2---2---2--2--|
|--0---0---0---0---0---0---0---0---0---0---0---0---0---0---0--0--|
      Sur une arme les doigts noues

   E               E4          B/E                         B7 
|----------------------------------------------------------------|
|----------------------------------------------------------------|
|--1---------------2-----------4---------------------------------|
|--2---------------2-----------4---------------------------1--2--|
|--2---2---2---2---2---2---2---2---2---2---2---2---2---2---2--2--|
|--0---0---0---0---0---0---0---0---0---0---0---0---0---0---0--0--|
     Pour agresser,serrer les  poings

   E               E4          B/E                         B7 
|----------------------------------------------------------------|
|----------------------------------------------------------------|
|--1---------------2-----------4---------------------------------|
|--2---------------2-----------4---------------------------2--1--|
|--2---2---2---2---2---2---2---2---2---2---2---2---2---2---2--2--|
|--0---0---0---0---0---0---0---0---0---0---0---0---0---0---0--0--|
   Mais nos paumes sont pour aimer                     Y'a pas de

   C#m             A              B
|----------------------------------------------------------------|
|----------------------------------------------------------------|
|--6---------------2--------------4------------------------------|
|--6---6---6---6---2---2---2---2--4---4---4---4---4---4---4---4--|
|--4---4---4---4---0---0---0---4--2---2---2---2---2---2---2---2--|
|----------------------------------------------------------------|
   caresse en   fermant les mains

Couplet 2 : Rythmique idem que Couplet 1

E                   E4     B/E
Longues, jointes en une priere
E             E4        B/E
Bien ouvertes pour acclamer
E                 E4           B/E
Dans un poing les choses a soustraire
           C#m             A      B
On ne peut rien tendre les doigts plies

Refrain 1 :

   E               E4          B/E                         B7 
|----------------------------------------------------------------|
|----------------------------------------------------------------|
|--1---------------2-----------4---------------------------------|
|--2---------------2-----------4---------------------------1--2--|
|--2---2---2---2---2---2---2---2---2---2---2---2---2---2---2--2--|
|--0---0---0---0---0---0---0---0---0---0---0---0---0---0---0--0--|
          Quand on ouvre  nos  mains

   E               E4          B/E                         B7 
|----------------------------------------------------------------|
|----------------------------------------------------------------|
|--1---------------2-----------4---------------------------------|
|--2---------------2-----------4---------------------------1--2--|
|--2---2---2---2---2---2---2---2---2---2---2---2---2---2---2--2--|
|--0---0---0---0---0---0---0---0---0---0---0---0---0---0---0--0--|
     Il suffit de rien dix fois rien

   C#m             B7              E               A
|-----------------------------------------------------------------|
|-----------------------------------------------------------------|
|--6---------------4-------------------------------2--------------|
|--6---6---6---6---1---1---1---1---1---------------2---2---2---2--|
|--4---4---4---4---2---2---2---2---2---2---2---2---0---0---0---0--|
|----------------------------------0---0---0---0------------------|
   Suffit d'une ou deux secondes a peine un geste un autre monde

   C#m             B               A
|-----------------------------------------------------------------|
|-----------------------------------------------------------------|
|--6---------------4---------------2------------------------------|
|--6---6---6---6---4---4---4---4---2---2---2---2---2---2---2---2--|
|--4---4---4---4---2---2---2---2---0---0---0---0---0---0---0---0--|
|-----------------------------------------------------------------|
          Quand on ouvre       nos mains

|---------------------------------|
|---------------------------------|
|--2-----------------------4------|
|--2---2---2---2---2---2---4---4--|
|--0---0---0---0---0---0---2---2--|
|---------------------------------|

Couplet 3 :

   E               E4          B/E                         B7 
|----------------------------------------------------------------|
|----------------------------------------------------------------|
|--1---------------2-----------4---------------------------------|
|--2---------------2-----------4---------------------------1--2--|
|--2---2---2---2---2---2---2---2---2---2---2---2---2---2---2--2--|
|--0---0---0---0---0---0---0---0---0---0---0---0---0---0---0--0--|
         Mecanique simple et facile

   E               E4          B/E                         B7 
|----------------------------------------------------------------|
|----------------------------------------------------------------|
|--1---------------2-----------4---------------------------------|
|--2---------------2-----------4---------------------------1--2--|
|--2---2---2---2---2---2---2---2---2---2---2---2---2---2---2--2--|
|--0---0---0---0---0---0---0---0---0---0---0---0---0---0---0--0--|
   Des veines et 10 metacarpiens

   E               E4          B/E                         B7 
|----------------------------------------------------------------|
|----------------------------------------------------------------|
|--1---------------2-----------4---------------------------------|
|--2---------------2-----------4---------------------------2--1--|
|--2---2---2---2---2---2---2---2---2---2---2---2---2---2---2--2--|
|--0---0---0---0---0---0---0---0---0---0---0---0---0---0---0--0--|
   Des phalanges aux tendons dociles                    Et tu re-

   C#m             A               B
|-----------------------------------------------------------------|
|-----------------------------------------------------------------|
|--6---------------2---------------4-----------------------2---4--|
|--6---6---6---6---2---2---2---2---4---4---4---4---4---4---4---4--|
|--4---4---4---4---0---0---0---0---2---2---2---2---2---2---2---2--|
|-----------------------------------------------------------------|
  -lache        ou bien       tu retiens

Couplet 4 :

   G               C/G             D/G
|-----------------------------------------------------------------|
|----------------------------------3------------------------------|
|----------------------------------2---2---2---2---2---2---2---2--|
|--5---------------5---------------0---0---0---0---0---0---0---0--|
|--5---5---5---5---3---3---3---3----------------------------------|
|--3---3---3---3---3---3---3---3----------------------------------|
     Et des ongles fait   pour  griffer

   G               C/G             D/G
|-----------------------------------------------------------------|
|----------------------------------3------------------------------|
|----------------------------------2---2---2---2---2---2---2---2--|
|--5---------------5---------------0---0---0---0---0---0---0---0--|
|--5---5---5---5---3---3---3---3----------------------------------|
|--3---3---3---3---3---3---3---3----------------------------------|
   Poussent au bout du mauvais   cote

   G               C/G             D/G
|-----------------------------------------------------------------|
|----------------------------------3------------------------------|
|----------------------------------2---2---2---2---2---2---2---2--|
|--5---------------5---------------0---0---0---0---0---0---0---0--|
|--5---5---5---5---3---3---3---3----------------------------------|
|--3---3---3---3---3---3---3---3----------------------------------|
       Celui qui menace   ou designe                 De l'autre on

   Em              C           D
|------------------------------2---2---2---2---2---2---2---2---2--|
|------------------1---1---1---3---3---3---3---3---3---3---3---3--|
|--0---0---0---0---0---0---0---2---2---2---2---2---2---2---2---2--|
|--2---2---2---2---2---2---2---0---0---0---0---0---0---0---0---0--|
|--2---2---2---2---3---3---3--------------------------------------|
|--0---0---0---0--------------------------------------------------|
   livre nos vies dans des lignes

Couplet 2 :

   G               C/G             D/G
|----------------------------------2---2---2---2---2---2---2---2--|
|----------------------------------3---3---3---3---3---3---3---3--|
|--4---4---4---4---5---5---5---5---2---2---2---2---2---2---2---2--|
|--5---5---5---5---5---5---5---5---0---0---0---0---0---0---0---0--|
|--5---5---5---5---3---3---3---3----------------------------------|
|--3---3---3---3---3---3---3---3----------------------------------|
     Quand   on    ouvre    nos    mains

   G               C/G             D/G
|----------------------------------2---2---2---2---2---2---2---2--|
|----------------------------------3---3---3---3---3---3---3---3--|
|--4---4---4---4---5---5---5---5---2---2---2---2---2---2---2---2--|
|--5---5---5---5---5---5---5---5---0---0---0---0---0---0---0---0--|
|--5---5---5---5---3---3---3---3----------------------------------|
|--3---3---3---3---3---3---3---3----------------------------------|
      Il suffit de rien dix  fois  rien

   Em              D               G               C
|------------------2---2---2---2----------------------------------|
|------------------3---3---3---3-------------------1---1---1---1--|
|--0---0---0---0---2---2---2---2---0---0---0---0---0---0---0---0--|
|--2---2---2---2---0---0---0---0---0---0---0---0---2---2---2---2--|
|--2---2---2---2-------------------2---2---2---2---3---3---3---3--|
|--0---0---0---0-------------------3---3---3---3------------------|
   Suffit d'une ou deux secondes A peine un geste, un autre monde

   Em              D               C       D
|------------------2---2---2---2------------------|
|------------------3---3---3---3-----------3---3--|
|--0---0---0---0---2---2---2---2---0---0---2---2--|
|--2---2---2---2---0---0---0---0---2---2---0---0--|
|--2---2---2---2-------------------3---3----------|
|--0---0---0---0----------------------------------|
      Quand   on   ouvre nos mains     OhOhOh

Couplet 5 : Rythmique idem que Couplet 4

G         C/G       D/G
Un simple geste d'humain
G                   C/G       D/G
Quand se desserrent ainsi nos poings
Em               D
Quand s'ecartent nos phalanges
G                  C
Sans mefiance, une arme d'échange
Em                 D              C   D
Des champs de bataille en jardin  OhOhOh

Couplet 6 :
G          C/G         D/G
Le courage du signe indien
G            C/G     D/G
Un cadeau d'hier a demain
Em                 D
Rien qu'un instant d'innocence
G             C
Un geste de reconnaissance

   Em              D               C
|------------------2---2---2---2----------------------------------|
|------------------3---3---3---3----------------------------------|
|--0---0---0---0---2---2---2---2---0---0---0---0---0---0---0---0--|
|--2---2---2---2---0---0---0---0---2---2---2---2---2---2---2---2--|
|--2---2---2---2-------------------3---3---3---3---3---3---3---3--|
|--0---0---0---0--------------------------------------------------|
   Quand on ouvre comme un ecrin   OhOhOh          OhOhOh

   C                       D       G
|----------------------------------3~~~~--|
|--------------------------3---3---3~~~~--|
|--0---0---0---0---0---0---2---2---0~~~~--|
|--2---2---2---2---2---2---0---0---0~~~~--|
|--3---3---3---3---3---3-----------2~~~~--|
|----------------------------------3~~~~--|
   OhOh      Quand   on  ouvre nos mains

Final :

   G
|----------------------------------------------3~~--|
|--3--1--0-------------------------------------3~~--|
|-----------0--2--2s4~~--0^2--0----------------0~~--|
|--------------------------------0^2~~------0--0~~--|
|----------------------------------------3-----2~~--|
|----------------------------------------------3~~--|