Quand tu danses


JJG utilise une guitare accordée 1 Ton plus bas.

Intro :
 
   C9                    G                     D4        D
|--3-----------3-------|-3-----------3-------|-3-----------2--------|
|--------3-----------3-|-------3-----------3-|-------3-----------3--|
|-----0-----------0----|---------------------|----2-----------2-----|
|----------------------|----0-----------0----|-0--------0-----------|
|--3--------3----------|---------------------|----------------------|
|----------------------|-3--------3----------|----------------------|

   Em7                   C9                    G
|--3-----------3-------|-3-----------3-------|-3-----------3--------|
|--------3-----------3-|-------3-----------3-|-------3-----------3--|
|----------------------|----0-----------0----|----------------------|
|-----2-----------2----|---------------------|----0-----------0-----|
|----------------------|-3--------3----------|----------------------|
|--0--------0----------|---------------------|-3--------3-----------|

    D        D           G
|--3-----------2-------|-3-----------3-------|-------------3--------|
|--------3-----------3-|-------3-----------3-|-------3-----------3--|
|-----2-----------2----|---------------------|----------------------|
|--0--------0----------|----0-----------0----|----0-----------0-----|
|----------------------|---------------------|----------------------|
|----------------------|-3--------3----------|-3--------3-----------|

|--------------3-------|-------------3--------|
|--------3-----------3-|-------3-----------3--|
|----------------------|----------------------|
|-----0-----------0----|----0-----------0-----|
|----------------------|----------------------|
|--3--------3----------|-3--------3-----------|

Couplet :

   Em7                   C9                    D4       D
|--3-----------3-------|-3-----------3-------|-3-----------2--------|
|--------3-----------3-|-------3-----------3-|-------3-----------3--|
|----------------------|----0-----------0----|----2-----------2-----|
|-----2-----------2----|---------------------|-0--------0-----------|
|----------------------|-3--------3----------|----------------------|
|--0--------0----------|---------------------|----------------------|
               J'ai fait la liste       de ce qu'on  ne  sera

   G                     G                     C9
|--3-----------3-------|-3-----------2-----0-|-0-----------3--------|
|--------3-----------3-|-------3-------------|-------3-----------3--|
|----------------------|---------------------|----0-----------0-----|
|-----0-----------0----|----0-----------0----|----------------------|
|----------------------|---------------------|-3--------3-----------|
|--3--------3----------|-3--------3----------|----------------------|
   plus                                        Quand tu danses

   G                     C9                     D        D4
|--------------3-------|-0-----------0-------|-2-----------3--------|
|--3-----3-----------3-|-------3-----------3-|-------3-----------3--|
|----------------------|----0-----------0----|----2-----------2-----|
|-----0-----------0----|---------------------|-0--------0-----------|
|----------------------|-3--------3----------|----------------------|
|--3--------3----------|---------------------|----------------------|
                                  Quand tu danses                               

   Em7                   C9                    D        D4
|--3-----------3-------|-3-----------3-------|-2-----------3--------|
|--------3-----------3-|-------3-----------3-|-------3-----------3--|
|----------------------|----0-----------0----|----2-----------2-----|
|-----2-----------2----|---------------------|-0--------0-----------|
|----------------------|-3--------3----------|----------------------|
|--0--------0----------|---------------------|----------------------|
               Mais que  deviennent   les      amoureux perdus

   Em7                   Em7                   C9
|--3-----------3-------|----3----------3-----|-3-----------3-------|
|--------3-----------3-|---------3---------3-|-------3-----------3-|
|----------------------|-------0---------0---|----0-----------0----|
|-----2-----------2----|-2----------0--------|---------------------|
|----------------------|---------------------|-3--------3----------|
|--0--------0----------|---------------------|---------------------|
                                                         Quand tu

  G                      D        D4            Em7
|--3-----------3-------|-2-----------3-------|-3-----------3-------|
|--------3-----------3-|-------3-----------3-|-------3-----------3-|
|----------------------|----2-----------2----|---------------------|
|-----0-----------0----|-0--------0----------|----2-----------2----|
|----------------------|---------------------|---------------------|
|--3--------3----------|---------------------|-0--------0----------|
   danses                       Y songes-tu ?

   C9                    G                     D        D4
|--3-----------3-------|-3-----------3-------|-2-----------3-------|
|--------3-----------3-|-------3-----------3-|-------3-----------3-|
|-----0-----------0----|---------------------|----2-----------2----|
|----------------------|----0-----------0----|-0--------0----------|
|--3--------3----------|---------------------|---------------------|
|----------------------|-3--------3----------|---------------------|
            Quand tu     danses                      Y songes-tu ?

  G
|--3-----------3-------|-------------3-------|-------------3--------|
|--------3-----------3-|-------3-----------3-|-------3-----------3--|
|----------------------|---------------------|----------------------|
|-----0-----------0----|----0-----------0----|----0-----------0-----|
|----------------------|---------------------|----------------------|
|--3--------3----------|-3--------3----------|-3--------3-----------|

Em7       C9                D           G 
Ami non,  ni amants, étrangers non plus
C9        G     C9         D
Quand tu danses, quand tu danses
Em7       C9            D           Em7
Mais quel après, après s'être appartenus
C9        G      D        Em7
Quand tu danses, y songes tu  ?
C9        G      D        G
Quand tu danses, y songes tu  ?

Em7        C9                D           G 
Je crois bien que j'aurai besoin de te voir
C9        G     C9         D
Quand tu danses, quand tu danses
Em7        C9            D           Em7
Sans te parler, ni déranger, mais te voir
C9        G      D        Em7
Quand tu danses, y songes tu  ?
C9        G      D        G
Quand tu danses, y songes tu  ?

Em7        C9                D           G 
Et toutes les peines, toutes, contre une seule de nos minutes
Em7        C9            D           Em7
Mais n'être plus rien après tant, c'est pas juste
C9        G      D        Em7
Quand tu danses, y songes tu  ?
C9        G      D        G
Quand tu danses, y songes tu  ?

Em7        C9                D           G 
Et j'ai fait la liste de ce qu'on ne sera plus
Em7        C9            D           Em7
Mais que deviennent les amours éperdues ?
C9        G      D        Em7
Quand tu danses, y songes tu  ?
C9        G      D        G
Quand tu danses, y songes tu  ?

Final :

   C                  G/D                 D                 Em G
|--8-----------8----|-------------------|-----------------|-------------|
|--------8--------8-|-12-------------12-|-10--------------|-8--------8--|
|-----9-------------|---------12--------|--------11----12-|-------------|
|-------------------|-----12------------|----12-----------|-------9-----|
|-------------------|-------------------|-----------------|-7--10-------|
|--8--------8-------|-10-----------10---|-10---------10---|-------------|

   C                  G/D                 D                 G
|--8-----------8----|-------------------|-----------------|----------3--|
|--------8--------8-|-12-------------12-|-10--------------|-------3-----|
|-----9-------------|---------12--------|--------11----12-|-----0-------|
|-------------------|-----12------------|----12-----------|-------------|
|-------------------|-------------------|-----------------|-------------|
|--8--------8-------|-10-----------10-- |-10---------10---|-3-----------|