Quel exil


Intro :

  Em                                             (x2)
|-------------------------------------------------|
|-------------------------------------------------|
|-------2-----0-----------------2-----0-----------|
|-------2-----2--2--0--2--------2-----2--2--0--2--|
|-------------------------------------------------|
|-0--0-----0--------------0--0-----0--------------|

        A               G            D       Em
Nom, prenom, numero, photo, signe particulier
       A                    G            D      Em
T'es geant, t'es zero, mais decline une identite
       G                       D
Et pourtant, pourtant, souvent je me demande
A                                          Em
Qui sont les miens, d'ou suis-je et quelle est ma bande
   G                D
De quelle tribu, de quelle famille
A                             C
Quel est mon arbre ou ma ville
D                          Em
Dans quelle ile ou quel exil

 
          A                         G              D         Em
Toi, t'es d'un coin, d'un bar, d'un quartier, meme d'un etage
        A                      G               D          Em
D'un parti blanc ou noir, t'as une chaise dans ton village
       G                     D
Et pourquoi, pourquoi, je me demande encore
A                                Em
Quel est donc mon bateau et quel est mon port
     G           D
Juste appartenir a un Sud ou a un Nord
A                      C
Mes racines se defilent
D                         Em
Dans quelle ile ou quel exil

       A                    G           D                Em
J'ai pose des questions aux professeurs en blouse blanche
       A                  G           D       Em
J'ai gagne des calmants a la place de reponses
       G                       D
Et pourtant, pourtant, dans un coin de ce monde
A                               Em
Un morceau de terre, un ciel et des secondes
    G                  D
Une histoire, un sang, du temps qui defile
A                          C
Si paisible et si tranquille
D                          Em
Dans quelle ile ou quel exil

       G                       D
Et pourtant, pourtant, dans un coin de ce monde
A                               Em
Un morceau de terre, un ciel et des secondes
    G                  D
Une histoire, un sang, du temps qui defile
A                          C
Si paisible et si tranquille
D                          Em
Dans quelle ile ou quel exil

 A
Juste, juste appartenir
C         D
A quelle ile ou quel exil

A
Juste, juste appartenir
C         D             Em
A quelle ile ou quel exil

A
Juste, juste appartenir
C         D            Em
A quelle ile ou quel exil

A
Juste, juste appartenir
C         D           Em
A quelle ile ou quel exil
 
Fin :

  Em
|-------------------------------------------------|
|-------------------------------------------------|
|-------2-----0-----------------2-----0-----7--9--|
|-------2-----2--2--0--2--------2-----2--2--7--9--|
|-------------------------------------------5--7--|
|-0--0-----0--------------0--0-----0--------------|