Sache que je


Intro :

   Em
|----------------------------------------------------------|
|----------------------------------------------------------|
|----------------------------------------------------------|
|----------------------------------------------------------|
|--7-----7~~-----7-----7~~-----7-----7~~-----7-----7~~-----|
|------0-------------0-------------0-------------0---------|

  E5                 E5/D              A5/C#             A5/C          (x2)
|------------------------------------------------------------------------|
|------------------------------------------------------------------------|
|------------------------------------------------------------------------|
|---------9-----9-----------9-----9-----------7-----7-----------7-----7--|
|--7------7--7--7----5------5--5--5----4------4--4--4----3------3--3--3--|
|------0-----------------0-----------------0-----------------0-----------|

Couplets :

  E5                 E5/D              A5/C#         A5/C
|----------------------------------------------------------------------|
|----------------------------------------------------------------------|
|----------------------------------------------------------------------|
|---------9-----9-----------9-----9-----------7------------7--7-----7--|
|--7------7--7--7----5------5--5--5----4------4--4---3-----3--3-----3--|
|------0-----------------0-----------------0------------0--------0-----|

  E5                 E5/D              A5/C#      A5/C
|---------------------------------------------------------------------|
|---------------------------------------------------------------------|
|---------------------------------------------------------------------|
|---------9-----9-----------9-----9-----------7----------7---7--7--7--|
|--7------7--7--7----5------5--5--5----4------4---3------3---3--3--3--|
|------0-----------------0-----------------0----------0---------------|

  E5                 E5/D              A5/C#                     C5
|-----------------------------------------------------------------------------------|
|-----------------------------------------------------------------------------------|
|-----------------------------------------------------------------------------------|
|---------9-----9-----------9-----9-----------7---7~--7~--7~~~---5----5-----5----5--|
|--7------7--7--7----5------5--5--5----4------4---4~--4~--4~~~---3----3-----3----3--|
|------0-----------------0-----------------0------------------------0-----0----0----|

       B5
|-------------------------------|
|-------------------------------|
|-------------------------------|
|------4~---4--4--4----4--4--4--|
|------2~---2--2--2----2--2--2--|
|--0----------------------------|

  E5                 E5/D              A5/C#         A5/C
|----------------------------------------------------------------------|
|----------------------------------------------------------------------|
|----------------------------------------------------------------------|
|---------9-----9-----------9-----9-----------7------------7--7-----7--|
|--7------7--7--7----5------5--5--5----4------4--4---3-----3--3-----3--|
|------0-----------------0-----------------0------------0--------0-----|

  E5                 E5/D              A5/C#      A5/C
|---------------------------------------------------------------------|
|---------------------------------------------------------------------|
|---------------------------------------------------------------------|
|---------9-----9-----------9-----9-----------7----------7---7--7--7--|
|--7------7--7--7----5------5--5--5----4------4---3------3---3--3--3--|
|------0-----------------0-----------------0----------0---------------|

  E5                 E5/D              A5/C#                     C5
|-----------------------------------------------------------------------------------|
|-----------------------------------------------------------------------------------|
|-----------------------------------------------------------------------------------|
|---------9-----9-----------9-----9-----------7---7~--7~--7~~~---5----5-----5----5--|
|--7------7--7--7----5------5--5--5----4------4---4~--4~--4~~~---3----3-----3----3--|
|------0-----------------0-----------------0------------------------0-----0----0----|

   B5          B5/A              B5/G       B5/F#
|-------------------------------------------------------------|
|-------4-----------4-----4----------4----------4-----4-4-----|
|-------4-----------4-----4----------4----------4-----4-4-----|
|--4~---4--4---4~---4--4--4--4-------4----------4-----4-4-----|
|--2~------2---0~------0-----0---x------x---x------x-------x--|
|--------------------------------3~-----3---2~-----2-------2--|

Refrains :

   Em          C             Am          B4        B
|----------------------------0~---0-0------------------|
|------8-------5~---5-5-5----1~---1-1----5~--5-5---4~--|
|------9--9----5~---5-5-5----2~---2-2----4~--4-4---4~--|
|------9--9----5~---5-5-5----2~---2-2----4~--4-4---4~--|
|--7~--7--7----3~---3-3-3----0~---0-0----2~--2-2---2~--|
|--0~-----0--------------------------------------------|

Pendant le solo jouer le refrain :

Em - C - Am - B4 - B

Avec de temps en temps une nuance :

Em - D - G - C - Am - B

Solo final :

# : Effet de volume sur la note suivante grace à une pédale
de volume ou le potard de la guitare.
| : Utilisaton du vibrato de la guitare pour produire le
son de la note entre parentheses.
/ : Glisser sur la corde jusqu'a la note suivante sans partir
d'une note precise.
 : Partir de la note precedente et effectuer un glisse vers
le haut du manche.
h : Hammer entre les 2 notes adjacentes.
p : Pulling-Off entre les 2 notes adjacentes.
s : Glisse entre les 2 notes adjacentes.
AH : Harmonique artificielle sur la note en dessous.
() : Jouer la note entre () en bloquant les cordes au niveau
du chevalet avec la main droite (Palm-Muting).
b : Bend vers la note suivante ou le contraire si la note suivante est
plus grave.
{}b : Faire le bend sur la note sans la jouer.

Solo Final :

3:20      3:23        3:26              3:31                  3:37
                                                   larsen
|-------------------------------------------------------------------|
|----------------------------7--7h8~----7h8-10-10s12~~~~~~~~~~~p10~-|
|-------------------------9-----------------------------------------|
|--#9~~~~~~|(7)-------/9--------------------------------------------|
|-------------------------------------------------------------------|
|-------------------------------------------------------------------|

3:39                        3:46     3:48                3:53             
                           larsen
|--17b19~~~~b17------------------------------------------------------------|
|---------------15s17-17~~~~~~~~~~~-----------------------10-12---/15-17--|
|-------------------------------------------------9~~s11-------------------|
|----------------------------------------------9---------------------------|
|--------------------------------------#7~~~-------------------------------|
|--------------------------------------------------------------------------|

3:59       4:01                    4:04
   AH                                                            AH
|-----------------------------------------------------------------------|
|----------12-10--------------------------------------------------------|
|--#11~~----------(11)-(11)-11h12--7-7-7h9---7--5--5-7-4-2--2h4-4~~~~--|
|-----------------------------------------------------------------------|
|-----------------------------------------------------------------------|
|-----------------------------------------------------------------------|

4:14             4:15                 4:20                        4:22

|-------------------------------------------------------------------------------|
|-----------------7~~h8---------------------------(7)---(8)--------10~~s12~~~~~-|
|--------(9)------------9~~~--9h11---------(9)------------(7)-(7)--------------|
|-----(9)---(9)--------------------------(9)---(9)---(9)------------------------|
|--(7)--------------------------------(7)---------------------------------------|
|-------------------------------------------------------------------------------|

4:27                       4:28                       4:31 

|--(12)--(12)--(14)--(15)-----------------------------------------------------|
|-----(12)--(12)--(12)-----15-15~~--15~~---------------------15b17-b15p13-12--|
|-----------------------------------------14b16b14p12-12----------------------|
|-----------------------------------------------------------------------------|
|-----------------------------------------------------------------------------|
|-----------------------------------------------------------------------------|

4:36            4:40          4:43                                         4:46
          début du fade-out  AH
|---------------------------{14}b15b14b15b14b15b14b15b14b15b14b15b14b15b14--12~~~-|
|---------------------------------------------------------------------------------|
|--14-14s16~~~~-------------------------------------------------------------------|
|---------------------------------------------------------------------------------|
|---------------------------------------------------------------------------------|
|---------------------------------------------------------------------------------|

4:50        4:52            4:55                        5:02
                                                         /---AH----
|--#14~~----------------------------------------------------------------|
|-----------12---------15------------------------------------------------|
|--------------14-14~-------14s16--14-12~~---12-11---11--14-11-14-11----|
|--------------------------------------------------14--------------------|
|------------------------------------------------------------------------|
|------------------------------------------------------------------------|

5:05                 5:10             5:13
                      AH
|------------------------------------------|
|------------------------------------------|
|-------------9~~~~~--9~~--9s11-12~---/16--|
|---------(9)------------------------------|
|--(7)-(7)---------------------------------|
|------------------------------------------|