Veiller tard


Capo 1ere Case

Couplet :

Bm
                                           
|--------------------------------|2-------------------------------|
|------------3-------------------|------------2-------------------|
|--------------------4-----------|--------------------3-----------|
|--------4---------------4-------|--------4---------------4-------|
|2-------------------------------|2---------------4---------------|
|----------------2---------------|--------------------------------|

Bm
                                           

|--------------------------------|2-------------------------------|
|------------3-------------------|------------3-------------------|
|--------------------4-----------|--------------------4-----------|
|--------4---------------4-------|--------4---------------4-------|
|2-------------------------------|2-------------------------------|
|----------------2---------------|----------------2---------------|

         Les lu-eurs     im- mo-  bi - les- d'un -jour - qui  -s'a

Gb
                                           
|--------------------------------|2-------------------------------|
|------------2-------------------|------------2-------------------|
|--------------------3-----------|--------------------3-----------|
|--------4---------------4-------|--------4---------------4-------|
|----------------4---------------|----------------4---------------|
|2-------------------------------|2-------------------------------|
 cheve _______  

Am
                                           
|--------------------------------|0-------------------------------|
|------------1-------------------|------------1-------------------|
|--------------------2-----------|--------------------2-----------|
|--------2---------------2-------|--------2---------------2-------|
|0-------------------------------|0-------------------------------|
|----------------0---------------|----------------0---------------|
 La-plainte      dou-lou  reuse_______d'unchien- qui - a

E
                                           
|--------------------------------|0-------------------------------|
|------------0-------------------|------------0-------------------|
|--------------------1-----------|--------------------1-----------|
|--------2---------------2-------|--------2---------------2-------|
|----------------2---------------|----------------2---------------|
|0-------------------------------|0-------------------------------|
 boit________

Em                                F#
                                           
|--------------------------------|2-------------------------------|
|------------0-------------------|------------2-------------------|
|0-------------------0-----------|--------------------3-----------|
|--------2---------------2-------|--------4---------------4-------|
|----------------2---------------|----------------4---------------|
|0-------------------------------|2-------------------------------|
         Le -si -lencein-quietant________ qui-pre-ce -de -les -re

Bm   
                                           
|--------------------------------|2-------------------------------|
|------------3-------------------|------------3-------------------|
|--------------------4-----------|--------------------4-----------|
|--------4---------------4-------|--------4---------------4-------|
|2-------------------------------|2-------------------------------|
|----------------2---------------|----------------2---------------|
 ves______

Em                                
                                           
|--------------------------------|0-------------------------------|
|------------0-------------------|------------0-------------------|
|0-------------------0-----------|--------------------0-----------|
|--------2---------------2-------|--------2---------------2-------|
|----------------2---------------|----------------2---------------|
|0-------------------------------|0-------------------------------|
 quandle-mon-de -dis-pa______ru - l'on - est - face - a 

 F#7/5+
                                           
|--------------------------------|--------------------------------|
|------------3---------------3---|------------3-------------------|
|--------------------3-----------|----3---------------3-----------|
|--------2---------------2-------|--------2---------------2-------|
|--------------------------------|--------------------------------|
|2---------------2---------------|2---------------2---------------|

Reprendre ce couplet 1 fois.
Refrain :

 D
                                           
|2-------------------------------|2-------------------------------|
|3-----------3-------------------|------------3-------------------|
|2-------------------2-----------|--------------------2-----------|
|--------4---------------4-------|--------4---------------4-------|
|5---------------5---------------|5---------------5---------------|
|--------------------------------|--------------------------------|
 Ces-vi -sa -ges-ou -blies________qui-reviennenta la -char

 A
                                           
|0-------------------------------|0-------------------------------|
|2-----------2-------------------|------------2-------------------|
|2-------------------2-----------|--------------------------------|
|--------2---------------2-------|--------2-----------------------|
|0---------------0---------------|0---------------0-------2-------|
|--------------------------------|--------------------------------|
 ________ge___________________

 C 
                                           
|--------------------------------|0-------------------------------|
|------------1-------------------|------------1-------------------|
|--------------------0-----------|--------------------0-----------|
|--------2---------------2-------|--------2---------------2-------|
|3---------------3---------------|3---------------3---------------|
|--------------------------------|--------------------------------|
         Ces e - treintes  qu'en  reve  on  peut  vi vre  cent 

 G   G9
                                           
|--------------------------------|3-------------------------------|
|------------0-------------------|------------0-------------------|
|--------------------0-----------|--------------------------------|
|--------0---------------0-------|--------0-----------------------|
|--------------------------------|------------------------0-------|
|3---------------3---------------|3---------------3---------------|
 fois____________________________

 Bm
                                           
|--------------------------------|2-------------------------------|
|------------3-------------------|------------3-------------------|
|--------------------4-----------|--------------------4-----------|
|--------4---------------4-------|--------4---------------4-------|
|2-------------------------------|2-------------------------------|
|----------------2---------------|----------------2---------------|
         Ces rai-sonsla -qui-font_________que-nos-rai-sonssont-vai-

 F#
                                           
|--------------------------------|2-------------------------------|
|------------2-------------------|------------2-------------------|
|--------------------3-----------|--------------------3-----------|
|--------4---------------4-------|--------4---------------4-------|
|----------------4---------------|----------------4---------------|
|2-------------------------------|2-------------------------------|
 ________nes

 G6   F#7
                                           
|--------------------------------|2-------------------------------|
|------------3-------------------|------------2-------------------|
|--------------------0-----------|--------------------3-----------|
|--------2---------------2-------|--------2---------------2-------|
|--------------------------------|----------------4---------------|
|3---------------3---------------|2-------------------------------|
             Ces-chosesaufond-de  nous____qui-nousfontvei-llertard

 Bm
                                           
|--------------------------------|2-------------------------------|
|------------3-------------------|------------3-------------------|
|--------------------4-----------|--------------------4-----------|
|--------4---------------4-------|--------4---------------4-------|
|2-------------------------------|2-------------------------------|
|----------------2---------------|----------------2---------------|

 Em
                                           
|--------------------------------|0-------------------------------|
|------------0-------------------|------------0-------------------|
|--------------------0-----------|--------------------0-----------|
|--------2---------------2-------|--------2---------------2-------|
|----------------2---------------|----------------2---------------|
|0-------------------------------|0-------------------------------|
         Ces-rai-sonsla -qui-font ________que-nos-rai-sonssont-vai

 Bm
                                           
|--------------------------------|2-------------------------------|
|------------3-------------------|------------3-------------------|
|--------------------4-----------|--------------------4-----------|
|--------4---------------4-------|--------4---------------4-------|
|2-------------------------------|2-------------------------------|
|----------------2---------------|----------------2---------------|
 nes_____
 
 G6   F#7
                                           
|--------------------------------|2-------------------------------|
|------------3-------------------|------------2-------------------|
|--------------------0-----------|--------------------3-----------|
|--------2---------------2-------|--------2---------------2-------|
|--------------------------------|----------------4---------------|
|3---------------3---------------|2-------------------------------|
             ces-chosesaufond-de  nous____qui-nousfontvei-llertard

 Bm
                                           
|--------------------------------|2-------------------------------|
|------------3-------------------|------------3-------------------|
|--------------------4-----------|--------------------4-----------|
|--------4---------------4-------|--------4---------------4-------|
|2-------------------------------|2-------------------------------|
|----------------2---------------|----------------2---------------|