Des vies


/ : Glisser sur la corde jusqu'a la note suivante sans partir
d'une note precise.
h : Hammer entre les 2 notes adjacentes.
p : Pulling-Off entre les 2 notes adjacentes.
s : Glisse entre les 2 notes adjacentes.
b : Bend vers la note suivante ou le contraire si la note suivante est
plus grave.
{}b : Faire le bend sur la note sans la jouer.

Intro :
 F#m  D  E  F#m
 F#m  D  E  F#m
 Am  F  G  Am 
 Am  F  G   

        F#m      
Ça fera un avocat, peut-être un notaire 
   E
Tradition de famille, du côté du père 
     D
S'il a des problèmes pour aller jusqu'en fac 
   F#m                 C#4          C# 
Il ira quand même, y'a des boîtes à bac 

  F#m       
Période rebelle entre quinze et dix-huit 
   E
Il dira des gros mots, il fumera du shit 
D
Passage à l'acte : une amie de sa mère 
       F#m                 C#4      C#
Il aimera les docksides et Mark Knopfler 

   Am
La soeur d'un voisin, flash, on s'aime, on se noce 
  G
Auto, un enfant trois quarts, roulez carrosse 
   F 
Maîtresses, plusieurs, pas de plaisir sans gêne 
  G                           E4           E
Divorce, quarantaine, pour la même en plus jeune 
       
    F                   E4      E          Am
Des vies, que des vies, pas les mieux, pas les pires 
         F                        E4            E         Am
Des bas, des hauts, des cris, des sanglots, des feux, des désirs 
         F                 E4  E
Du temps qu'on aura cru saisir 
         Am            Dm
Mais que restait-il à écrire ? 
         F               E4      E     Dm     E4  E
Des vies où l'on aura eu peu, si peu à choisir 

        F#m
Il s'ra chanteur de rap, joueur de basket 
E
Boxeur, sprinter, G.I. peut-être 
       D
S'il a pas l'étincelle, mort ou dealer 
F#m                         C#
Rien d'autre au menu de son quartier, sa soeur 

Am
Probablement mère à quinze ans, classique 
   G
T'échappes à la police, pas aux statistiques 
      F
Autre enfant d'la rue, né de père inconnu 
       G
Qui de bien entendu, compris ? On continue 
 

        
    F                   E4      E          Am
Des vies, que des vies, pas les mieux, pas les pires 
         F                        E4            E         Am
Des bas, des hauts, des cris, des sanglots, des feux, des désirs 
         F                 E4  E
Du temps qu'on aura cru saisir 
         Am            Dm
Mais que restait-il à écrire ? 
         F               E4      E     Dm
Des vies où l'on aura eu peu, si peu à choisir 

         F          E       Am
De vrais oublis, de faux souvenirs 
          F                       E4       E       Am
Des coups de sang, de coeur et souffrir et rire et plaisir 
       F                   E4    E
Des parties qu'on aura cru jouer 
           Am                  Dm
Lesquelles n'étaient pas programmées ? 
         F               E4      E     Dm     E4  E
Des vies où l'on aura eu peu, si peu à écrire 

Solo :
 
 F#m  D  E  F#m
 F#m  D  E  F#m
 Am   F  G  Am 
 Am   F   

  2:22
|-----------------5h8p5----------5---------------------------------------------|
|-----------8b10--------8b10-8-5---8p5---5------5-----------------8-----10-12--|
|--7b9b7p5-----------------------------8---8-7-5--8p7p5---7-5-7s9---9s11-------|
|-------------------------------------------------------7----------------------|
|------------------------------------------------------------------------------|
|------------------------------------------------------------------------------|

  2:26                                2:29
|---------10-12-------------12-----------------------12---------------------------|
|--12b14--------12b14b12p10----10~~~---------9-10-12------------------------------|
|-------------------------------------11b13--------------{11}b13b11p9--11p9----9--|
|---------------------------------------------------------------------------11-9--|
|---------------------------------------------------------------------------------|
|---------------------------------------------------------------------------------|

2:32                                              2:36
|---------------------------------------------------------4-5p4----------5--|
|--------5--5h7--5--------5--------5--------------5b7b5b7-------7p5---------|
|-----7-------------7-4h6---6s4--2---4b6--4--2~~---------------------7s6----|
|--7------------------------------------------------------------------------|
|---------------------------------------------------------------------------|
|---------------------------------------------------------------------------|

2:38                   2:39                      2:42
|----------------5--------------8-10-10b12-8-10----------------------8-10--|
|---------5-5h7--------8b10~~~-------------------10~---10b12~~b10b12-------|
|----4s6-------------------------------------------------------------------|
|--7-----------------------------------------------------------------------|
|--------------------------------------------------------------------------|
|--------------------------------------------------------------------------|

   2:43                        2:45
|---------------------------------------------15---15-------13s12----12-13p12--|
|--{10}b12b10p8--10b12-8~~~-------13-15-15b17~~~~17~~~17b15-------15-----------|
|-----------------------------/14----------------------------------------------|
|------------------------------------------------------------------------------|
|------------------------------------------------------------------------------|
|------------------------------------------------------------------------------|

               2:49                           2:51

|--------------15b17-15b17-15b17-15b17b16~~~------17----------------------------|
|--15b17b15-13--------------------------------/17----20-20b22~~-20b22--20p18s17-|
|-------------------------------------------------------------------------------|
|-------------------------------------------------------------------------------|
|-------------------------------------------------------------------------------|
|-------------------------------------------------------------------------------|

   2:54                                   2:58
|---------------------------------------------17----20b22~~~b20-20-19-19b20--|
|-------------------------------17--------/17----17--------------------------|
|--19---17-16-------------------17-------------------------------------------|
|-------------19--17-17h19~~~------19~~~-------------------------------------|
|----------------------------------------------------------------------------|
|----------------------------------------------------------------------------|

 
 3:01                    3:03
|--19-19b20--------------------------------------------|
|-----------20-20b22~~~~-------20----------------------|
|------------------------19b21~~~~21b19--17-19-17------|
|-------------------------------------------------19~--|
|------------------------------------------------------|
|------------------------------------------------------|

         F                 E4  E
Du temps qu'on aura cru saisir 
         Am            Dm
Mais que restait-il à écrire ? 
         F               E4      E     Dm
Des vies où l'on aura eu peu, si peu à choisir 

         F          E       Am
De vrais oublis, de faux souvenirs 
          F                       E4       E       Am
Des coups de sang, de coeur et souffrir et rire et plaisir 
       F                   E4    E
Des parties qu'on aura cru jouer 
           Am                  Dm
Lesquelles n'étaient pas programmées ? 
         F               E4      E     Dm     E4  E
Des vies où l'on aura eu peu, si peu à écrire